Steel Panther The Shocker Ukulele

TabCrawler.ComS / Steel Panther / The Shocker Ukulele log in ] [ register ]
TABCRAWLER Online Sheet Music & Lyrics Archive Member Votes: 0 / 5(0 votes)
TAB VIEWS for the shocker ukulele chords: 22

To to be able to download PDF tabs, rate, comment & submit guitar tabs, bass tabs, keyboard tab, lyrics and drum tab files you must LOGIN TO TABCRAWLER Online Guitar Tabs & Guitar Pro, Bass Tab, Drum Tabs Archive MEMBERS ONLY AREA.
[PRINT]
Did this chords for the shocker ukulele help you?
You must LOGIN to rate this chords.
Help us improve the tab & lyrics archive!

The Shocker Ukulele by Steel Panther

-------------------------------------------------------------------------------
                             The Shocker - Steel Panther
-------------------------------------------------------------------------------
Tabbed by: Reesy666
Email: rees1_6@live.com

Tuning: Eb, Ab, Db, Gb, Bb, eb

Please note that this is not 100% accurate yet but if, like me, you want to learn
every steel panther song but no one else seems to try to figure
them out then this will be a good start and hopefully someone will
tell me the parts i've got wrong and bits i can't work out. Enjoy

Intro: "Are You Ready Baby?"
e|---------------------------------------------------------------------------|
B|--------------------------8------------------------------------------------|
G|-2---2-------------7----7-7-7----------------------------------------------|
D|-2---2-2---2-5---5-7----7-7-7----------------------------------------------|
A|-0---0-2---2-5---5-5----5-5-5----------------------------------------------|
E|-------0---0-3---3---------------------------------------------------------|
x2

Lead Section (Please email me any corrections)             |--N.H.-------|Use Whammy Bar 
e|----5----7------9-----10-----11-----12~------------------------------------------------------|
B|-------------------/9----/10----/11--------------------------7-7-----------------------------|
G|-/7----/9---/11--------------------------12--11--9--7-7----7-----7---7/////////-----|
D|---------------------------------------------------------7---------7-------------------------|
A|---------------------------------------------------------------------------------------------|
E|---------------------------------------------------------------------------------------------|


Verses
e|-------------------------|
B|-------------------------|
G|-4---4-2---2-9----------|
D|-4---4-2---2-9----5--7--|
A|-2---2-0---0-7----5--7--|
E|-------------------3--5--| x2

 Palm mute the single notes but not the power chords
e|---------------------------|
B|---------------------------|
G|-4---4-2---2---------------|
D|-4---4-2---2-2---2-5--7----|
A|-22222-00000-2---2-5--7----|
E|-------------00000-3--5----| x2

Pre-chorus
Again, please email me any corrections
                                                    |---P.M.---------|
e|-------------------------------------------------------------------|
B|-------------------7-------5---------------------------------------|
G|-5-----7---------7-------5---5-------5------7-----9-9-9-9-9-9-9-9--|
D|-5-----7-------7-------5-----5---5---5------7-----9-9-9-9-9-9-9-9--|
A|-3-----5-----9-------7-------3---5---3------5-----7-7-7-7-7-7-7-7--|
E|---------------------------------3----------------0-0-0-0-0-0-0-0--|

Chorus
I'm pretty sure this is correct
Let the D5 ring out on the second time round and in the second chorus, on the 3rd and 
time playing this, don't hit the high open strings on the E5.
e|------------0----0------------------------------------------------------------------|
B|------------0----0----------------8-------------------------------------------------|
G|-2---------------------------7--7-7-7-----------------------------------------------|
D|-2------2------------5-------7--7-7-7-----------------------------------------------|
A|-0------2------------5-------5------------------------------------------------------|
E|--------0----0-0-----3--------------------------------------------------------------|


Lead Fill Before Second Chorus
                                   When you release the bend, pull-off to 9
e|-12h15p12p10----10------------------------------|
B|-------------14----12h14p12p10----10------------|
G|-------------------------------12----12bp9-12~--|
D|------------------------------------------------|
A|------------------------------------------------|
E|------------------------------------------------|


Solo
Once more, any corrections are more than welcome
e|------------------------------------------------------------------------------|
B|-9-x-x-x-x-9-9------9-x-x-x-x-9-9-------12b--9h12p9h12t14p12p9h12p9h12t14p12--|
G|-9-x-x-x-x-9-9------9-x-x-x-x-9-9---------------------------------------------|
D|---------------11~----------------11~-----------------------------------------|
A|------------------------------------------------------------------------------|
E|------------------------------------------------------------------------------|

e|----------------------------------------------------------------------|
B|--------------------------------9---------9-9----9--9-x-x-x-x-9-9-----|
G|--12-11h12p11p9-12-11h12p11p9~--9-x-x-x-x-9-9----9--9-x-x-x-x-9-9-----|
D|----------------------------------------------11------------------11--|
A|----------------------------------------------------------------------|
E|----------------------------------------------------------------------|

This section is too fast for me to be bothered to work it out note-for-note
but if you just play these notes fast, it should sound close. If anyone
has a better way let me know please.
                    I tremolo pick and add these notes randomly
e|---------------------------------15h16p15----------15-16-15-16-19br-19br--|
B|-----12-----14-----15--15-17-19-----------19-17-19------------------------|
G|-/14----/16----/17--------------------------------------------------------|
D|--------------------------------------------------------------------------|
A|--------------------------------------------------------------------------|
E|--------------------------------------------------------------------------|

e|-16-19-16-19-16-19-16-19-16h19p16----16h19p16----16h19p16----16h19p16----------------|
B|----------------------------------19----------19----------19----------19-------------|
G|-------------------------------------------------------------------------------------|
D|-------------------------------------------------------------------------------------|
A|-------------------------------------------------------------------------------------|
E|-------------------------------------------------------------------------------------|

e|---------------------------------------------------------------------|
B|-19br---------19-17----17--------------------------------------------|
G|-------18br---------18----18-16-18----18-16----------18--------------|
D|-----------------------------------18-------18-16-18----18-1614~~~--|
A|---------------------------------------------------------------------|
E|---------------------------------------------------------------------|
                                                                    Whammy Dive
e|------------------------------------------------------------------------|
B|-------10----------------12---------------------------------------------|
G|----11----11-9--------13----13-11--------14-----16-----17-----19-21\--|
D|-12------------12--14-------------14-/16----/18----/19----/21-----------|
A|------------------------------------------------------------------------|
E|------------------------------------------------------------------------|

There you go. To repeat myself again... Email me with any corrections,
Rees
************************************

| /   slide up
|    slide down
| h   hammer-on
| p   pull-off
| ~   vibrato
| +   harmonic
| x   Mute note
| b   Bend
| pb  Pre-bend
| br  Bend release
| pbr Pre-bend release
| brb Bend release bend

************************************

TAB AND LYRICS COMMENTS:

There is no comments for the the shocker ukulele chords sheet music yet. Please post one now!

© 2018 TabCrawler Online Guitar Tab and Music Lessons Archive